ISO-10303-21;
HEADER;
FILE_DESCRIPTION (( 'STEP AP203' ),
    '1' );
FILE_NAME ('125NPTETS.STEP',
    '2019-09-03T07:54:02',
    ( '' ),
    ( '' ),
    'SwSTEP 2.0',
    'SolidWorks 2017',
    '' );
FILE_SCHEMA (( 'CONFIG_CONTROL_DESIGN' ));
ENDSEC;

DATA;
#1 = ORIENTED_EDGE ( 'NONE', *, *, #61, .T. ) ;
#2 = AXIS2_PLACEMENT_3D ( 'NONE', #205, #208, #92 ) ;
#3 = MANIFOLD_SOLID_BREP ( 'Revolve1', #109 ) ;
#4 = CC_DESIGN_APPROVAL ( #104, ( #194 ) ) ;
#5 = FACE_BOUND ( 'NONE', #123, .T. ) ;
#6 = VERTEX_POINT ( 'NONE', #221 ) ;
#7 = AXIS2_PLACEMENT_3D ( 'NONE', #95, #197, #74 ) ;
#8 = ORIENTED_EDGE ( 'NONE', *, *, #106, .F. ) ;
#9 = DIRECTION ( 'NONE',  ( 0.0000000000000000000, 0.0000000000000000000, -1.000000000000000000 ) ) ;
#10 = APPROVAL_PERSON_ORGANIZATION ( #122, #178, #189 ) ;
#11 = VERTEX_POINT ( 'NONE', #223 ) ;
#12 = APPLICATION_PROTOCOL_DEFINITION ( 'international standard', 'config_control_design', 1994, #226 ) ;
#13 = DIRECTION ( 'NONE',  ( 0.0000000000000000000, 0.0000000000000000000, 1.000000000000000000 ) ) ;
#14 =( NAMED_UNIT ( * ) PLANE_ANGLE_UNIT ( ) SI_UNIT ( $, .RADIAN. ) );
#15 = ADVANCED_FACE ( 'NONE', ( #200 ), #36, .F. ) ;
#16 = ORIENTED_EDGE ( 'NONE', *, *, #162, .F. ) ;
#17 = DIRECTION ( 'NONE',  ( -0.0000000000000000000, -1.000000000000000000, -0.0000000000000000000 ) ) ;
#18 = PERSON ( 'UNSPECIFIED', 'UNSPECIFIED', 'UNSPECIFIED', ('UNSPECIFIED'), ('UNSPECIFIED'), ('UNSPECIFIED') ) ;
#19 = DIRECTION ( 'NONE',  ( -0.0000000000000000000, -1.000000000000000000, -0.0000000000000000000 ) ) ;
#20 = AXIS2_PLACEMENT_3D ( 'NONE', #157, #132, #152 ) ;
#21 = DATE_TIME_ROLE ( 'creation_date' ) ;
#22 = CARTESIAN_POINT ( 'NONE',  ( -27.55000000000000100, 0.0000000000000000000, 0.0000000000000000000 ) ) ;
#23 = PERSON_AND_ORGANIZATION ( #18, #90 ) ;
#24 = CARTESIAN_POINT ( 'NONE',  ( 2.632990618166809200E-015, 2.000000000000000000, 21.50000000000000000 ) ) ;
#25 = DATE_AND_TIME ( #218, #174 ) ;
#26 = ORIENTED_EDGE ( 'NONE', *, *, #141, .F. ) ;
#27 = AXIS2_PLACEMENT_3D ( 'NONE', #85, #64, #9 ) ;
#28 = LOCAL_TIME ( 8, 54, 2.000000000000000000, #126 ) ;
#29 = ORIENTED_EDGE ( 'NONE', *, *, #43, .F. ) ;
#30 = UNCERTAINTY_MEASURE_WITH_UNIT (LENGTH_MEASURE( 1.000000000000000100E-005 ), #220, 'distance_accuracy_value', 'NONE');
#31 = FACE_OUTER_BOUND ( 'NONE', #163, .T. ) ;
#32 = CARTESIAN_POINT ( 'NONE',  ( 0.0000000000000000000, 0.0000000000000000000, -21.50000000000000000 ) ) ;
#33 = CARTESIAN_POINT ( 'NONE',  ( 0.0000000000000000000, 2.000000000000000000, 0.0000000000000000000 ) ) ;
#34 = AXIS2_PLACEMENT_3D ( 'NONE', #173, #231, #117 ) ;
#35 = CARTESIAN_POINT ( 'NONE',  ( 0.0000000000000000000, 0.0000000000000000000, 27.55000000000000100 ) ) ;
#36 = CYLINDRICAL_SURFACE ( 'NONE', #48, 21.50000000000000000 ) ;
#37 = APPROVAL_STATUS ( 'not_yet_approved' ) ;
#38 = CARTESIAN_POINT ( 'NONE',  ( 0.0000000000000000000, 2.000000000000000000, 27.61984153898348600 ) ) ;
#39 = LINE ( 'NONE', #170, #87 ) ;
#40 = DIRECTION ( 'NONE',  ( 0.0000000000000000000, 0.9993908270190958700, 0.03489949670249519600 ) ) ;
#41 = VECTOR ( 'NONE', #72, 1000.000000000000000 ) ;
#42 = CIRCLE ( 'NONE', #214, 21.50000000000000000 ) ;
#43 = EDGE_CURVE ( 'NONE', #193, #146, #229, .T. ) ;
#44 = SHAPE_DEFINITION_REPRESENTATION ( #99, #237 ) ;
#45 =( GEOMETRIC_REPRESENTATION_CONTEXT ( 3 ) GLOBAL_UNCERTAINTY_ASSIGNED_CONTEXT ( ( #30 ) ) GLOBAL_UNIT_ASSIGNED_CONTEXT ( ( #220, #14, #230 ) ) REPRESENTATION_CONTEXT ( 'NONE', 'WORKASPACE' ) );
#46 = ORIENTED_EDGE ( 'NONE', *, *, #81, .F. ) ;
#47 = CC_DESIGN_SECURITY_CLASSIFICATION ( #194, ( #164 ) ) ;
#48 = AXIS2_PLACEMENT_3D ( 'NONE', #108, #227, #133 ) ;
#49 = CONICAL_SURFACE ( 'NONE', #243, 27.61984153898348600, 0.03490658503988081100 ) ;
#50 = AXIS2_PLACEMENT_3D ( 'NONE', #241, #17, #113 ) ;
#51 = FACE_OUTER_BOUND ( 'NONE', #56, .T. ) ;
#52 = PERSON_AND_ORGANIZATION_ROLE ( 'design_supplier' ) ;
#53 = CARTESIAN_POINT ( 'NONE',  ( 0.0000000000000000000, 0.0000000000000000000, 0.0000000000000000000 ) ) ;
#54 = ADVANCED_FACE ( 'NONE', ( #183 ), #140, .F. ) ;
#55 = APPROVAL_STATUS ( 'not_yet_approved' ) ;
#56 = EDGE_LOOP ( 'NONE', ( #158, #233 ) ) ;
#57 = APPROVAL_PERSON_ORGANIZATION ( #202, #104, #187 ) ;
#58 = PERSON_AND_ORGANIZATION_ROLE ( 'creator' ) ;
#59 = CC_DESIGN_PERSON_AND_ORGANIZATION_ASSIGNMENT ( #177, #167, ( #206 ) ) ;
#60 = DIRECTION ( 'NONE',  ( -0.0000000000000000000, -1.000000000000000000, -0.0000000000000000000 ) ) ;
#61 = EDGE_CURVE ( 'NONE', #120, #6, #42, .T. ) ;
#62 = APPROVAL_PERSON_ORGANIZATION ( #75, #65, #112 ) ;
#63 = ORIENTED_EDGE ( 'NONE', *, *, #106, .T. ) ;
#64 = DIRECTION ( 'NONE',  ( -0.0000000000000000000, -1.000000000000000000, -0.0000000000000000000 ) ) ;
#65 = APPROVAL ( #37, 'UNSPECIFIED' ) ;
#66 = LOCAL_TIME ( 8, 54, 2.000000000000000000, #118 ) ;
#67 = EDGE_CURVE ( 'NONE', #96, #11, #82, .T. ) ;
#68 = AXIS2_PLACEMENT_3D ( 'NONE', #196, #169, #69 ) ;
#69 = DIRECTION ( 'NONE',  ( 0.0000000000000000000, 0.0000000000000000000, -1.000000000000000000 ) ) ;
#70 = CARTESIAN_POINT ( 'NONE',  ( 0.0000000000000000000, 0.0000000000000000000, 0.0000000000000000000 ) ) ;
#71 = ADVANCED_FACE ( 'NONE', ( #31 ), #49, .T. ) ;
#72 = DIRECTION ( 'NONE',  ( -0.0000000000000000000, -1.000000000000000000, -0.0000000000000000000 ) ) ;
#73 = DIRECTION ( 'NONE',  ( 0.0000000000000000000, 1.000000000000000000, 0.0000000000000000000 ) ) ;
#74 = DIRECTION ( 'NONE',  ( 0.0000000000000000000, 0.0000000000000000000, -1.000000000000000000 ) ) ;
#75 = PERSON_AND_ORGANIZATION ( #18, #90 ) ;
#76 = ORIENTED_EDGE ( 'NONE', *, *, #81, .T. ) ;
#77 = CIRCLE ( 'NONE', #7, 27.55000000000000100 ) ;
#78 = FACE_OUTER_BOUND ( 'NONE', #180, .T. ) ;
#79 = CC_DESIGN_APPROVAL ( #65, ( #125 ) ) ;
#80 = CALENDAR_DATE ( 2019, 3, 9 ) ;
#81 = EDGE_CURVE ( 'NONE', #201, #11, #190, .T. ) ;
#82 = CIRCLE ( 'NONE', #50, 27.61984153898348600 ) ;
#83 = CC_DESIGN_PERSON_AND_ORGANIZATION_ASSIGNMENT ( #245, #244, ( #194 ) ) ;
#84 = CIRCLE ( 'NONE', #34, 21.50000000000000000 ) ;
#85 = CARTESIAN_POINT ( 'NONE',  ( 0.0000000000000000000, 2.000000000000000000, 0.0000000000000000000 ) ) ;
#86 = ORIENTED_EDGE ( 'NONE', *, *, #148, .T. ) ;
#87 = VECTOR ( 'NONE', #40, 1000.000000000000100 ) ;
#88 = APPROVAL_DATE_TIME ( #238, #178 ) ;
#89 = VERTEX_POINT ( 'NONE', #35 ) ;
#90 = ORGANIZATION ( 'UNSPECIFIED', 'UNSPECIFIED', '' ) ;
#91 = LINE ( 'NONE', #114, #145 ) ;
#92 = DIRECTION ( 'NONE',  ( 0.0000000000000000000, 0.0000000000000000000, -1.000000000000000000 ) ) ;
#93 = SECURITY_CLASSIFICATION_LEVEL ( 'unclassified' ) ;
#94 = CC_DESIGN_APPROVAL ( #178, ( #164 ) ) ;
#95 = CARTESIAN_POINT ( 'NONE',  ( 0.0000000000000000000, 0.0000000000000000000, 0.0000000000000000000 ) ) ;
#96 = VERTEX_POINT ( 'NONE', #38 ) ;
#97 = AXIS2_PLACEMENT_3D ( 'NONE', #22, #137, #115 ) ;
#98 = APPROVAL_DATE_TIME ( #155, #104 ) ;
#99 = PRODUCT_DEFINITION_SHAPE ( 'NONE', 'NONE',  #125 ) ;
#100 = PRODUCT_RELATED_PRODUCT_CATEGORY ( 'detail', '', ( #206 ) ) ;
#101 = ORIENTED_EDGE ( 'NONE', *, *, #124, .F. ) ;
#102 = PERSON_AND_ORGANIZATION ( #18, #90 ) ;
#103 = AXIS2_PLACEMENT_3D ( 'NONE', #33, #73, #156 ) ;
#104 = APPROVAL ( #149, 'UNSPECIFIED' ) ;
#105 = DIRECTION ( 'NONE',  ( 0.0000000000000000000, 0.0000000000000000000, -1.000000000000000000 ) ) ;
#106 = EDGE_CURVE ( 'NONE', #6, #120, #84, .T. ) ;
#107 = MECHANICAL_CONTEXT ( 'NONE', #136, 'mechanical' ) ;
#108 = CARTESIAN_POINT ( 'NONE',  ( 0.0000000000000000000, 0.0000000000000000000, 0.0000000000000000000 ) ) ;
#109 = CLOSED_SHELL ( 'NONE', ( #54, #71, #168, #131, #15, #204 ) ) ;
#110 = CARTESIAN_POINT ( 'NONE',  ( 0.0000000000000000000, 2.000000000000000000, 0.0000000000000000000 ) ) ;
#111 = ORIENTED_EDGE ( 'NONE', *, *, #61, .F. ) ;
#112 = APPROVAL_ROLE ( '' ) ;
#113 = DIRECTION ( 'NONE',  ( 0.0000000000000000000, 0.0000000000000000000, -1.000000000000000000 ) ) ;
#114 = CARTESIAN_POINT ( 'NONE',  ( 2.632990618166809200E-015, 0.0000000000000000000, 21.50000000000000000 ) ) ;
#115 = DIRECTION ( 'NONE',  ( 0.0000000000000000000, -0.0000000000000000000, 1.000000000000000000 ) ) ;
#116 = DESIGN_CONTEXT ( 'detailed design', #226, 'design' ) ;
#117 = DIRECTION ( 'NONE',  ( 0.0000000000000000000, 0.0000000000000000000, -1.000000000000000000 ) ) ;
#118 = COORDINATED_UNIVERSAL_TIME_OFFSET ( 0, 0, .AHEAD. ) ;
#119 = ORIENTED_EDGE ( 'NONE', *, *, #148, .F. ) ;
#120 = VERTEX_POINT ( 'NONE', #32 ) ;
#121 = CC_DESIGN_PERSON_AND_ORGANIZATION_ASSIGNMENT ( #184, #58, ( #164 ) ) ;
#122 = PERSON_AND_ORGANIZATION ( #18, #90 ) ;
#123 = EDGE_LOOP ( 'NONE', ( #185, #247 ) ) ;
#124 = EDGE_CURVE ( 'NONE', #146, #6, #91, .T. ) ;
#125 = PRODUCT_DEFINITION ( 'UNKNOWN', '', #164, #116 ) ;
#126 = COORDINATED_UNIVERSAL_TIME_OFFSET ( 0, 0, .AHEAD. ) ;
#127 = CALENDAR_DATE ( 2019, 3, 9 ) ;
#128 = EDGE_LOOP ( 'NONE', ( #101, #29, #86, #1 ) ) ;
#129 = DIRECTION ( 'NONE',  ( 0.0000000000000000000, 0.0000000000000000000, -1.000000000000000000 ) ) ;
#130 = CARTESIAN_POINT ( 'NONE',  ( 0.0000000000000000000, 2.000000000000000000, 0.0000000000000000000 ) ) ;
#131 = ADVANCED_FACE ( 'NONE', ( #181, #186 ), #209, .F. ) ;
#132 = DIRECTION ( 'NONE',  ( 0.0000000000000000000, 0.0000000000000000000, 1.000000000000000000 ) ) ;
#133 = DIRECTION ( 'NONE',  ( 0.0000000000000000000, 0.0000000000000000000, -1.000000000000000000 ) ) ;
#134 = DIRECTION ( 'NONE',  ( 0.0000000000000000000, 1.000000000000000000, 0.0000000000000000000 ) ) ;
#135 = DIRECTION ( 'NONE',  ( -0.0000000000000000000, -1.000000000000000000, -0.0000000000000000000 ) ) ;
#136 = APPLICATION_CONTEXT ( 'configuration controlled 3d designs of mechanical parts and assemblies' ) ;
#137 = DIRECTION ( 'NONE',  ( 0.0000000000000000000, 1.000000000000000000, 0.0000000000000000000 ) ) ;
#138 = COORDINATED_UNIVERSAL_TIME_OFFSET ( 0, 0, .AHEAD. ) ;
#139 = ORIENTED_EDGE ( 'NONE', *, *, #151, .T. ) ;
#140 = CYLINDRICAL_SURFACE ( 'NONE', #203, 21.50000000000000000 ) ;
#141 = EDGE_CURVE ( 'NONE', #89, #201, #77, .T. ) ;
#142 = EDGE_CURVE ( 'NONE', #11, #96, #235, .T. ) ;
#143 = VECTOR ( 'NONE', #150, 1000.000000000000100 ) ;
#144 = CC_DESIGN_PERSON_AND_ORGANIZATION_ASSIGNMENT ( #23, #171, ( #125 ) ) ;
#145 = VECTOR ( 'NONE', #210, 1000.000000000000000 ) ;
#146 = VERTEX_POINT ( 'NONE', #24 ) ;
#147 = EDGE_LOOP ( 'NONE', ( #216, #213, #63, #119 ) ) ;
#148 = EDGE_CURVE ( 'NONE', #193, #120, #198, .T. ) ;
#149 = APPROVAL_STATUS ( 'not_yet_approved' ) ;
#150 = DIRECTION ( 'NONE',  ( 4.273955692856434600E-018, 0.9993908270190958700, -0.03489949670249519600 ) ) ;
#151 = EDGE_CURVE ( 'NONE', #89, #96, #39, .T. ) ;
#152 = DIRECTION ( 'NONE',  ( 1.000000000000000000, 0.0000000000000000000, 0.0000000000000000000 ) ) ;
#153 = ORIENTED_EDGE ( 'NONE', *, *, #162, .T. ) ;
#154 = CC_DESIGN_DATE_AND_TIME_ASSIGNMENT ( #25, #21, ( #125 ) ) ;
#155 = DATE_AND_TIME ( #217, #28 ) ;
#156 = DIRECTION ( 'NONE',  ( 0.0000000000000000000, 0.0000000000000000000, 1.000000000000000000 ) ) ;
#157 = CARTESIAN_POINT ( 'NONE',  ( 0.0000000000000000000, 0.0000000000000000000, 0.0000000000000000000 ) ) ;
#158 = ORIENTED_EDGE ( 'NONE', *, *, #67, .F. ) ;
#159 = LOCAL_TIME ( 8, 54, 2.000000000000000000, #138 ) ;
#160 = CIRCLE ( 'NONE', #228, 21.50000000000000000 ) ;
#161 = LOCAL_TIME ( 8, 54, 2.000000000000000000, #211 ) ;
#162 = EDGE_CURVE ( 'NONE', #201, #89, #182, .T. ) ;
#163 = EDGE_LOOP ( 'NONE', ( #16, #76, #212, #239 ) ) ;
#164 = PRODUCT_DEFINITION_FORMATION_WITH_SPECIFIED_SOURCE ( 'ANY', '', #206, .NOT_KNOWN. ) ;
#165 = DATE_AND_TIME ( #127, #66 ) ;
#166 = ORIENTED_EDGE ( 'NONE', *, *, #67, .T. ) ;
#167 = PERSON_AND_ORGANIZATION_ROLE ( 'design_owner' ) ;
#168 = ADVANCED_FACE ( 'NONE', ( #78 ), #249, .T. ) ;
#169 = DIRECTION ( 'NONE',  ( -0.0000000000000000000, -1.000000000000000000, -0.0000000000000000000 ) ) ;
#170 = CARTESIAN_POINT ( 'NONE',  ( 0.0000000000000000000, 2.000000000000000000, 27.61984153898348600 ) ) ;
#171 = PERSON_AND_ORGANIZATION_ROLE ( 'creator' ) ;
#172 = CARTESIAN_POINT ( 'NONE',  ( 3.378178492509140800E-015, 0.0000000000000000000, -27.55000000000000100 ) ) ;
#173 = CARTESIAN_POINT ( 'NONE',  ( 0.0000000000000000000, 0.0000000000000000000, 0.0000000000000000000 ) ) ;
#174 = LOCAL_TIME ( 8, 54, 2.000000000000000000, #215 ) ;
#175 = ORIENTED_EDGE ( 'NONE', *, *, #141, .T. ) ;
#176 = EDGE_CURVE ( 'NONE', #146, #193, #160, .T. ) ;
#177 = PERSON_AND_ORGANIZATION ( #18, #90 ) ;
#178 = APPROVAL ( #55, 'UNSPECIFIED' ) ;
#179 = CALENDAR_DATE ( 2019, 3, 9 ) ;
#180 = EDGE_LOOP ( 'NONE', ( #46, #26, #139, #166 ) ) ;
#181 = FACE_BOUND ( 'NONE', #207, .T. ) ;
#182 = CIRCLE ( 'NONE', #68, 27.55000000000000100 ) ;
#183 = FACE_OUTER_BOUND ( 'NONE', #147, .T. ) ;
#184 = PERSON_AND_ORGANIZATION ( #18, #90 ) ;
#185 = ORIENTED_EDGE ( 'NONE', *, *, #43, .T. ) ;
#186 = FACE_OUTER_BOUND ( 'NONE', #219, .T. ) ;
#187 = APPROVAL_ROLE ( '' ) ;
#188 = DIRECTION ( 'NONE',  ( 0.0000000000000000000, 0.0000000000000000000, -1.000000000000000000 ) ) ;
#189 = APPROVAL_ROLE ( '' ) ;
#190 = LINE ( 'NONE', #225, #143 ) ;
#191 = DIRECTION ( 'NONE',  ( 0.0000000000000000000, 0.0000000000000000000, -1.000000000000000000 ) ) ;
#192 = CARTESIAN_POINT ( 'NONE',  ( 0.0000000000000000000, 2.000000000000000000, 0.0000000000000000000 ) ) ;
#193 = VERTEX_POINT ( 'NONE', #224 ) ;
#194 = SECURITY_CLASSIFICATION ( '', '', #93 ) ;
#195 = DATE_TIME_ROLE ( 'classification_date' ) ;
#196 = CARTESIAN_POINT ( 'NONE',  ( 0.0000000000000000000, 0.0000000000000000000, 0.0000000000000000000 ) ) ;
#197 = DIRECTION ( 'NONE',  ( -0.0000000000000000000, -1.000000000000000000, -0.0000000000000000000 ) ) ;
#198 = LINE ( 'NONE', #248, #41 ) ;
#199 = AXIS2_PLACEMENT_3D ( 'NONE', #192, #242, #129 ) ;
#200 = FACE_OUTER_BOUND ( 'NONE', #128, .T. ) ;
#201 = VERTEX_POINT ( 'NONE', #172 ) ;
#202 = PERSON_AND_ORGANIZATION ( #18, #90 ) ;
#203 = AXIS2_PLACEMENT_3D ( 'NONE', #70, #135, #105 ) ;
#204 = ADVANCED_FACE ( 'NONE', ( #51, #5 ), #246, .F. ) ;
#205 = CARTESIAN_POINT ( 'NONE',  ( -27.61984153898348600, 2.000000000000000000, 0.0000000000000000000 ) ) ;
#206 = PRODUCT ( '125NPTETS', '125NPTETS', '', ( #107 ) ) ;
#207 = EDGE_LOOP ( 'NONE', ( #111, #8 ) ) ;
#208 = DIRECTION ( 'NONE',  ( 0.0000000000000000000, -1.000000000000000000, -0.0000000000000000000 ) ) ;
#209 = PLANE ( 'NONE',  #97 ) ;
#210 = DIRECTION ( 'NONE',  ( -0.0000000000000000000, -1.000000000000000000, -0.0000000000000000000 ) ) ;
#211 = COORDINATED_UNIVERSAL_TIME_OFFSET ( 0, 0, .AHEAD. ) ;
#212 = ORIENTED_EDGE ( 'NONE', *, *, #142, .T. ) ;
#213 = ORIENTED_EDGE ( 'NONE', *, *, #124, .T. ) ;
#214 = AXIS2_PLACEMENT_3D ( 'NONE', #53, #19, #188 ) ;
#215 = COORDINATED_UNIVERSAL_TIME_OFFSET ( 0, 0, .AHEAD. ) ;
#216 = ORIENTED_EDGE ( 'NONE', *, *, #176, .F. ) ;
#217 = CALENDAR_DATE ( 2019, 3, 9 ) ;
#218 = CALENDAR_DATE ( 2019, 3, 9 ) ;
#219 = EDGE_LOOP ( 'NONE', ( #175, #153 ) ) ;
#220 =( LENGTH_UNIT ( ) NAMED_UNIT ( * ) SI_UNIT ( .MILLI., .METRE. ) );
#221 = CARTESIAN_POINT ( 'NONE',  ( 2.632990618166809200E-015, 0.0000000000000000000, 21.50000000000000000 ) ) ;
#222 = APPLICATION_PROTOCOL_DEFINITION ( 'international standard', 'config_control_design', 1994, #136 ) ;
#223 = CARTESIAN_POINT ( 'NONE',  ( 3.382455053367322800E-015, 2.000000000000000000, -27.61984153898348600 ) ) ;
#224 = CARTESIAN_POINT ( 'NONE',  ( 0.0000000000000000000, 2.000000000000000000, -21.50000000000000000 ) ) ;
#225 = CARTESIAN_POINT ( 'NONE',  ( 3.382455053367322800E-015, 2.000000000000000000, -27.61984153898348600 ) ) ;
#226 = APPLICATION_CONTEXT ( 'configuration controlled 3d designs of mechanical parts and assemblies' ) ;
#227 = DIRECTION ( 'NONE',  ( -0.0000000000000000000, -1.000000000000000000, -0.0000000000000000000 ) ) ;
#228 = AXIS2_PLACEMENT_3D ( 'NONE', #110, #60, #191 ) ;
#229 = CIRCLE ( 'NONE', #199, 21.50000000000000000 ) ;
#230 =( NAMED_UNIT ( * ) SI_UNIT ( $, .STERADIAN. ) SOLID_ANGLE_UNIT ( ) );
#231 = DIRECTION ( 'NONE',  ( -0.0000000000000000000, -1.000000000000000000, -0.0000000000000000000 ) ) ;
#232 = APPROVAL_DATE_TIME ( #165, #65 ) ;
#233 = ORIENTED_EDGE ( 'NONE', *, *, #142, .F. ) ;
#234 = CC_DESIGN_PERSON_AND_ORGANIZATION_ASSIGNMENT ( #102, #52, ( #164 ) ) ;
#235 = CIRCLE ( 'NONE', #27, 27.61984153898348600 ) ;
#236 = DATE_AND_TIME ( #80, #159 ) ;
#237 = ADVANCED_BREP_SHAPE_REPRESENTATION ( '125NPTETS', ( #3, #20 ), #45 ) ;
#238 = DATE_AND_TIME ( #179, #161 ) ;
#239 = ORIENTED_EDGE ( 'NONE', *, *, #151, .F. ) ;
#240 = CC_DESIGN_DATE_AND_TIME_ASSIGNMENT ( #236, #195, ( #194 ) ) ;
#241 = CARTESIAN_POINT ( 'NONE',  ( 0.0000000000000000000, 2.000000000000000000, 0.0000000000000000000 ) ) ;
#242 = DIRECTION ( 'NONE',  ( -0.0000000000000000000, -1.000000000000000000, -0.0000000000000000000 ) ) ;
#243 = AXIS2_PLACEMENT_3D ( 'NONE', #130, #134, #13 ) ;
#244 = PERSON_AND_ORGANIZATION_ROLE ( 'classification_officer' ) ;
#245 = PERSON_AND_ORGANIZATION ( #18, #90 ) ;
#246 = PLANE ( 'NONE',  #2 ) ;
#247 = ORIENTED_EDGE ( 'NONE', *, *, #176, .T. ) ;
#248 = CARTESIAN_POINT ( 'NONE',  ( 0.0000000000000000000, 0.0000000000000000000, -21.50000000000000000 ) ) ;
#249 = CONICAL_SURFACE ( 'NONE', #103, 27.61984153898348600, 0.03490658503988081100 ) ;
ENDSEC;
END-ISO-10303-21;
